  0
SECTION
  2
HEADER
  9
$ACADVER
  1
AC1009
  9
$INSBASE
 10
73.00523754861151
 20
49.79541732913592
 30
0.0
  9
$EXTMIN
 10
73.00523754861151
 20
49.79541732913592
 30
0.0
  9
$EXTMAX
 10
154.2016671351538
 20
91.27671465785802
 30
0.0
  9
$LIMMIN
 10
68.16549951862708
 20
55.04961138671617
  9
$LIMMAX
 10
130.0558761955243
 20
107.4830544457513
  9
$ORTHOMODE
 70
     1
  9
$REGENMODE
 70
     1
  9
$FILLMODE
 70
     1
  9
$QTEXTMODE
 70
     0
  9
$MIRRTEXT
 70
     1
  9
$DRAGMODE
 70
     2
  9
$LTSCALE
 40
1.0
  9
$OSMODE
 70
     0
  9
$ATTMODE
 70
     1
  9
$TEXTSIZE
 40
0.2
  9
$TRACEWID
 40
0.05
  9
$TEXTSTYLE
  7
STANDARD
  9
$CLAYER
  8
ITEM_50
  9
$CELTYPE
  6
BYLAYER
  9
$CECOLOR
 62
   256
  9
$DIMSCALE
 40
1.0
  9
$DIMASZ
 40
0.18
  9
$DIMEXO
 40
0.0625
  9
$DIMDLI
 40
0.38
  9
$DIMRND
 40
0.0
  9
$DIMDLE
 40
0.0
  9
$DIMEXE
 40
0.18
  9
$DIMTP
 40
0.0
  9
$DIMTM
 40
0.0
  9
$DIMTXT
 40
0.18
  9
$DIMCEN
 40
0.09
  9
$DIMTSZ
 40
0.0
  9
$DIMTOL
 70
     0
  9
$DIMLIM
 70
     0
  9
$DIMTIH
 70
     1
  9
$DIMTOH
 70
     1
  9
$DIMSE1
 70
     0
  9
$DIMSE2
 70
     0
  9
$DIMTAD
 70
     0
  9
$DIMZIN
 70
     0
  9
$DIMBLK
  1

  9
$DIMASO
 70
     1
  9
$DIMSHO
 70
     0
  9
$DIMPOST
  1

  9
$DIMAPOST
  1

  9
$DIMALT
 70
     0
  9
$DIMALTD
 70
     2
  9
$DIMALTF
 40
25.39999999999999
  9
$DIMLFAC
 40
1.0
  9
$DIMTOFL
 70
     0
  9
$DIMTVP
 40
0.0
  9
$DIMTIX
 70
     0
  9
$DIMSOXD
 70
     0
  9
$DIMSAH
 70
     0
  9
$DIMBLK1
  1

  9
$DIMBLK2
  1

  9
$DIMSTYLE
  2
*UNNAMED
  9
$DIMCLRD
 70
     0
  9
$DIMCLRE
 70
     0
  9
$DIMCLRT
 70
     0
  9
$DIMTFAC
 40
1.0
  9
$DIMGAP
 40
0.09
  9
$LUNITS
 70
     2
  9
$LUPREC
 70
     3
  9
$SKETCHINC
 40
0.1
  9
$FILLETRAD
 40
0.2
  9
$AUNITS
 70
     0
  9
$AUPREC
 70
     0
  9
$MENU
  1

  9
$ELEVATION
 40
0.0
  9
$PELEVATION
 40
0.0
  9
$THICKNESS
 40
0.0
  9
$LIMCHECK
 70
     0
  9
$BLIPMODE
 70
     0
  9
$CHAMFERA
 40
0.0
  9
$CHAMFERB
 40
0.0
  9
$SKPOLY
 70
     0
  9
$TDCREATE
 40
2448754.404193055
  9
$TDUPDATE
 40
2449393.439262731
  9
$TDINDWG
 40
0.0082621528
  9
$TDUSRTIMER
 40
0.0082621528
  9
$USRTIMER
 70
     1
  9
$ANGBASE
 50
0.0
  9
$ANGDIR
 70
     0
  9
$PDMODE
 70
     0
  9
$PDSIZE
 40
0.0
  9
$PLINEWID
 40
0.0
  9
$COORDS
 70
     0
  9
$SPLFRAME
 70
     0
  9
$SPLINETYPE
 70
     6
  9
$SPLINESEGS
 70
     8
  9
$ATTDIA
 70
     0
  9
$ATTREQ
 70
     1
  9
$HANDLING
 70
     0
  9
$HANDSEED
  5
10B
  9
$SURFTAB1
 70
     6
  9
$SURFTAB2
 70
     6
  9
$SURFTYPE
 70
     6
  9
$SURFU
 70
     6
  9
$SURFV
 70
     6
  9
$UCSNAME
  2

  9
$UCSORG
 10
0.0
 20
0.0
 30
0.0
  9
$UCSXDIR
 10
1.0
 20
0.0
 30
0.0
  9
$UCSYDIR
 10
0.0
 20
1.0
 30
0.0
  9
$PUCSNAME
  2

  9
$PUCSORG
 10
0.0
 20
0.0
 30
0.0
  9
$PUCSXDIR
 10
1.0
 20
0.0
 30
0.0
  9
$PUCSYDIR
 10
0.0
 20
1.0
 30
0.0
  9
$USERI1
 70
     0
  9
$USERI2
 70
     0
  9
$USERI3
 70
     0
  9
$USERI4
 70
     0
  9
$USERI5
 70
     0
  9
$USERR1
 40
0.0
  9
$USERR2
 40
0.0
  9
$USERR3
 40
0.0
  9
$USERR4
 40
0.0
  9
$USERR5
 40
0.0
  9
$WORLDVIEW
 70
     1
  9
$SHADEDGE
 70
     3
  9
$SHADEDIF
 70
    70
  9
$TILEMODE
 70
     1
  9
$MAXACTVP
 70
    16
  9
$PINSBASE
 10
0.0
 20
0.0
 30
0.0
  9
$PLIMCHECK
 70
     0
  9
$PEXTMIN
 10
1.000000000000000E+20
 20
1.000000000000000E+20
 30
1.000000000000000E+20
  9
$PEXTMAX
 10
-1.000000000000000E+20
 20
-1.000000000000000E+20
 30
-1.000000000000000E+20
  9
$PLIMMIN
 10
0.0
 20
0.0
  9
$PLIMMAX
 10
12.0
 20
9.0
  9
$UNITMODE
 70
     0
  9
$VISRETAIN
 70
     0
  9
$PLINEGEN
 70
     0
  9
$PSLTSCALE
 70
     0
  9
$TREEDEPTH
 70
  3020
  9
$DWGCODEPAGE
  3
undefined
  0
ENDSEC
  0
SECTION
  2
TABLES
  0
TABLE
  2
VPORT
 70
     2
  0
VPORT
  2
*ACTIVE
 70
     0
 10
0.0
 20
0.0
 11
1.0
 21
1.0
 12
113.6034523418826
 22
81.62028909504763
 13
0.0
 23
0.0
 14
1.0
 24
1.0
 15
0.0
 25
0.0
 16
0.0
 26
0.0
 36
1.0
 17
0.0
 27
0.0
 37
0.0
 40
63.64974353182343
 41
1.275675675675675
 42
50.0
 43
0.0
 44
0.0
 50
0.0
 51
0.0
 71
     0
 72
   100
 73
     1
 74
     1
 75
     0
 76
     0
 77
     0
 78
     0
  0
ENDTAB
  0
TABLE
  2
LTYPE
 70
     2
  0
LTYPE
  2
CONTINUOUS
 70
    64
  3
Ausgezogene Linie
 72
    65
 73
     0
 40
0.0
  0
LTYPE
  2
ITEM-STRICHPUNKT
 70
    64
  3
__ . __ . __
 72
    65
 73
     4
 40
3.599999999999999
 49
2.399999999999999
 49
-0.6
 49
0.0
 49
-0.6
  0
ENDTAB
  0
TABLE
  2
LAYER
 70
     4
  0
LAYER
  2
0
 70
    64
 62
     7
  6
CONTINUOUS
  0
LAYER
  2
ITEM_25
 70
    64
 62
     3
  6
CONTINUOUS
  0
LAYER
  2
ITEM_STP
 70
    64
 62
     4
  6
ITEM-STRICHPUNKT
  0
LAYER
  2
ITEM_50
 70
    64
 62
     7
  6
CONTINUOUS
  0
ENDTAB
  0
TABLE
  2
STYLE
 70
     1
  0
STYLE
  2
STANDARD
 70
     0
 40
0.0
 41
1.0
 50
0.0
 71
     0
 42
0.2
  3
txt
  4

  0
ENDTAB
  0
TABLE
  2
VIEW
 70
     0
  0
ENDTAB
  0
TABLE
  2
UCS
 70
     0
  0
ENDTAB
  0
TABLE
  2
APPID
 70
     1
  0
APPID
  2
ACAD
 70
    64
  0
ENDTAB
  0
TABLE
  2
DIMSTYLE
 70
     0
  0
ENDTAB
  0
ENDSEC
  0
SECTION
  2
BLOCKS
  0
ENDSEC
  0
SECTION
  2
ENTITIES
  0
LINE
  8
ITEM_STP
 10
97.5464691428708
 20
85.86789757441924
 30
0.0
 11
73.00523754861151
 21
85.86789757441923
 31
0.0
  0
LINE
  8
ITEM_25
 10
91.42012871611687
 20
87.43839757441928
 30
0.0
 11
92.02012871611648
 21
87.43839757441928
 31
0.0
  0
LINE
  8
ITEM_25
 10
86.22012871611649
 20
84.29739757441925
 30
0.0
 11
92.02012871611648
 21
84.29739757441925
 31
0.0
  0
LINE
  8
ITEM_STP
 10
90.83068071611648
 20
80.86789757441961
 30
0.0
 11
97.56689792096712
 21
80.86789757441961
 31
0.0
  0
POLYLINE
  8
ITEM_50
 66
     1
 10
0.0
 20
0.0
 30
0.0
  0
VERTEX
  8
ITEM_50
 10
96.22012871611649
 20
83.86789757441961
 30
0.0
  0
VERTEX
  8
ITEM_50
 10
96.22012871611649
 20
82.06789757441961
 30
0.0
  0
SEQEND
  8
ITEM_50
  0
POLYLINE
  8
ITEM_50
 66
     1
 10
0.0
 20
0.0
 30
0.0
  0
VERTEX
  8
ITEM_50
 10
96.22012871611649
 20
79.66789757441961
 30
0.0
  0
VERTEX
  8
ITEM_50
 10
96.22012871611649
 20
78.36789757441961
 30
0.0
  0
SEQEND
  8
ITEM_50
  0
ARC
  8
ITEM_50
 10
97.41013171611649
 20
80.86789757441961
 30
0.0
 40
1.690002
 50
134.760343
 51
225.239657
  0
ARC
  8
ITEM_50
 10
95.32012871611649
 20
80.86789757441961
 30
0.0
 40
1.5
 50
306.8698979999999
 51
53.130102
  0
ARC
  8
ITEM_50
 10
97.91955571611649
 20
85.86789757441961
 30
0.0
 40
2.624509
 50
130.3549899999999
 51
229.64501
  0
ARC
  8
ITEM_50
 10
116.990710466449
 20
66.80288296461371
 30
0.0
 40
8.0
 50
128.646371
 51
157.9107829999999
  0
ARC
  8
ITEM_50
 10
113.555894466449
 20
71.09846696461372
 30
0.0
 40
2.5
 50
89.99996699999999
 51
128.6463679999999
  0
ARC
  8
ITEM_50
 10
109.855894466449
 20
69.69846696461372
 30
0.0
 40
0.3
 50
157.910773
 51
270.0
  0
LINE
  8
ITEM_50
 10
109.855894466449
 20
69.39846696461371
 30
0.0
 11
113.555894466449
 21
69.39846696461371
 31
0.0
  0
ARC
  8
ITEM_50
 10
113.555895466449
 20
71.09846696461372
 30
0.0
 40
2.5
 50
51.35359299999999
 51
89.99999399999997
  0
ARC
  8
ITEM_50
 10
110.121077466449
 20
66.80288596461372
 30
0.0
 40
8.0
 50
22.08917700000002
 51
51.35358900000002
  0
ARC
  8
ITEM_50
 10
117.255894466449
 20
69.69846496461372
 30
0.0
 40
0.3
 50
269.9999599999999
 51
22.08918799999999
  0
LINE
  8
ITEM_50
 10
117.255894466449
 20
69.39846496461372
 30
0.0
 11
113.555894466449
 21
69.39846696461371
 31
0.0
  0
CIRCLE
  8
ITEM_50
 10
113.6034523418826
 20
85.86789757441923
 30
0.0
 40
1.62
  0
LINE
  8
ITEM_50
 10
117.6034523418826
 20
78.36789757441923
 30
0.0
 11
109.6034523418826
 21
78.36789757441923
 31
0.0
  0
LINE
  8
ITEM_50
 10
109.6034523418826
 20
78.36789757441923
 30
0.0
 11
109.6034523418826
 21
83.01789757441886
 31
0.0
  0
LINE
  8
ITEM_50
 10
117.6034523418826
 20
83.01789757441888
 30
0.0
 11
117.6034523418826
 21
78.36789757441923
 31
0.0
  0
LINE
  8
ITEM_STP
 10
113.6034523418826
 20
91.27671465785802
 30
0.0
 11
113.6034523418826
 21
77.67492031791459
 31
0.0
  0
LINE
  8
ITEM_STP
 10
120.1034523418826
 20
85.86789757441923
 30
0.0
 11
107.1034523418826
 21
85.86789757441923
 31
0.0
  0
ARC
  8
ITEM_50
 10
113.555894466449
 20
72.69846696461371
 30
0.0
 40
1.5
 50
17.45763893356847
 51
162.5423968762776
  0
LINE
  8
ITEM_STP
 10
121.1855347873306
 20
57.59895501023042
 30
0.0
 11
106.0213698964346
 21
57.59895501023044
 31
0.0
  0
LINE
  8
ITEM_STP
 10
113.6034523418826
 20
74.91683385174098
 30
0.0
 11
113.6034523418826
 21
49.79541732913592
 31
0.0
  0
CIRCLE
  8
ITEM_50
 10
113.6034523418826
 20
57.59895501023044
 30
0.0
 40
6.0
  0
LINE
  8
ITEM_50
 10
116.1034523418826
 20
68.79895501023044
 30
0.0
 11
111.1034523418826
 21
68.79895501023044
 31
0.0
  0
LINE
  8
ITEM_50
 10
111.1034523418826
 20
68.79895501023044
 30
0.0
 11
111.1034523418826
 21
63.05331106754829
 31
0.0
  0
LINE
  8
ITEM_50
 10
116.1034523418826
 20
68.79895501023044
 30
0.0
 11
116.1034523418826
 21
63.05331106754829
 31
0.0
  0
LINE
  8
ITEM_50
 10
116.1034523418826
 20
65.39895501023043
 30
0.0
 11
111.1034523418826
 21
65.39895501023043
 31
0.0
  0
LINE
  8
ITEM_50
 10
74.2201287161165
 20
81.61789757441923
 30
0.0
 11
74.2201287161165
 21
90.11789757441924
 31
0.0
  0
LINE
  8
ITEM_50
 10
86.2201287161165
 20
81.61789757441923
 30
0.0
 11
86.2201287161165
 21
87.11789757441928
 31
0.0
  0
LINE
  8
ITEM_50
 10
74.2201287161165
 20
90.11789757441923
 30
0.0
 11
86.2201287161165
 21
90.11789757441923
 31
0.0
  0
LINE
  8
ITEM_50
 10
74.2201287161165
 20
81.61789757441923
 30
0.0
 11
86.2201287161165
 21
81.61789757441923
 31
0.0
  0
LINE
  8
0
 10
86.2201287161165
 20
87.11789757441923
 30
0.0
 11
87.38508865681302
 21
87.11789757441923
 31
0.0
  0
LINE
  8
ITEM_STP
 10
80.2201287161165
 20
80.52940510144944
 30
0.0
 11
80.2201287161165
 21
91.20643474882248
 31
0.0
  0
LINE
  8
ITEM_50
 10
91.42012871611687
 20
87.11789757441927
 30
0.0
 11
91.42012871611687
 21
89.9178975744192
 31
0.0
  0
LINE
  8
ITEM_50
 10
88.02012871575389
 20
89.21932391452223
 30
0.0
 11
87.48508865397387
 21
89.9178975744192
 31
0.0
  0
LINE
  8
ITEM_50
 10
85.67448477343434
 20
89.91789757441918
 30
0.0
 11
87.48508865397387
 21
89.91789757441921
 31
0.0
  0
LINE
  8
ITEM_50
 10
88.55516877753389
 20
89.91789757441921
 30
0.0
 11
91.42012871611689
 21
89.91789757441921
 31
0.0
  0
LINE
  8
ITEM_50
 10
85.67448477343434
 20
87.11789757441928
 30
0.0
 11
87.48508865397387
 21
87.11789757441927
 31
0.0
  0
LINE
  8
ITEM_50
 10
88.5551687775339
 20
87.11789757441923
 30
0.0
 11
91.42012871611686
 21
87.11789757441925
 31
0.0
  0
LINE
  8
ITEM_50
 10
85.67448477343434
 20
87.11789757441928
 30
0.0
 11
85.67448477343435
 21
89.91789757441917
 31
0.0
  0
LINE
  8
0
 10
86.2201287161165
 20
89.91789757441918
 30
0.0
 11
86.2201287161165
 21
90.11789757441924
 31
0.0
  0
LINE
  8
ITEM_25
 10
115.1739523418826
 20
68.79895501023042
 30
0.0
 11
115.1739523418826
 21
69.39895501023117
 31
0.0
  0
LINE
  8
ITEM_25
 10
112.0329523418826
 20
68.79895501023044
 30
0.0
 11
112.0329523418826
 21
69.39895501023117
 31
0.0
  0
LINE
  8
ITEM_50
 10
111.1034523418826
 20
64.86391495135127
 30
0.0
 11
116.1034523418826
 21
64.86391495135129
 31
0.0
  0
LINE
  8
ITEM_50
 10
111.1034523418826
 20
65.93399507164784
 30
0.0
 11
116.1034523418826
 21
65.93399507164784
 31
0.0
  0
POLYLINE
  8
ITEM_50
 66
     1
 10
0.0
 20
0.0
 30
0.0
  0
VERTEX
  8
ITEM_50
 10
115.6034523418826
 20
68.79895501023044
 30
0.0
 50
180.0
  0
VERTEX
  8
ITEM_50
 10
115.6034523418826
 20
69.39895501023117
 30
0.0
 50
180.0
  0
SEQEND
  8
ITEM_50
  0
POLYLINE
  8
ITEM_50
 66
     1
 10
0.0
 20
0.0
 30
0.0
  0
VERTEX
  8
ITEM_50
 10
111.6034523418826
 20
69.39895501023117
 30
0.0
 50
180.0
  0
VERTEX
  8
ITEM_50
 10
111.6034523418826
 20
68.79895501023044
 30
0.0
 50
180.0
  0
SEQEND
  8
ITEM_50
  0
POLYLINE
  8
ITEM_50
 66
     1
 10
0.0
 20
0.0
 30
0.0
  0
VERTEX
  8
ITEM_50
 10
92.02012871611648
 20
87.86789757441925
 30
0.0
 50
90.0
  0
VERTEX
  8
ITEM_50
 10
91.42012871611687
 20
87.86789757441925
 30
0.0
 50
90.0
  0
SEQEND
  8
ITEM_50
  0
POLYLINE
  8
ITEM_50
 66
     1
 10
0.0
 20
0.0
 30
0.0
  0
VERTEX
  8
ITEM_50
 10
86.2201287161165
 20
83.86789757441925
 30
0.0
 50
90.0
  0
VERTEX
  8
ITEM_50
 10
92.02012871611648
 20
83.86789757441925
 30
0.0
 50
90.0
  0
SEQEND
  8
ITEM_50
  0
POLYLINE
  8
ITEM_50
 66
     1
 10
0.0
 20
0.0
 30
0.0
  0
VERTEX
  8
ITEM_50
 10
95.72012871611688
 20
84.43591700096365
 30
0.0
 50
90.0
  0
VERTEX
  8
ITEM_50
 10
95.7201287161169
 20
87.29987814787526
 30
0.0
 50
90.0
  0
SEQEND
  8
ITEM_50
  0
LINE
  8
ITEM_50
 10
107.603452341883
 20
90.11789757441923
 30
0.0
 11
119.603452341883
 21
90.11789757441923
 31
0.0
  0
LINE
  8
ITEM_50
 10
111.0034523418823
 20
81.61789757441921
 30
0.0
 11
116.203452341883
 21
81.61789757441923
 31
0.0
  0
LINE
  8
ITEM_50
 10
107.603452341883
 20
90.11789757441923
 30
0.0
 11
107.603452341883
 21
85.01789757441846
 31
0.0
  0
LINE
  8
ITEM_50
 10
119.603452341883
 20
90.11789757441923
 30
0.0
 11
119.603452341883
 21
85.01789757441926
 31
0.0
  0
LINE
  8
ITEM_50
 10
116.203452341883
 20
81.61789757441924
 30
0.0
 11
119.603452341883
 21
85.01789757441925
 31
0.0
  0
LINE
  8
ITEM_50
 10
111.0034523418823
 20
81.61789757441924
 30
0.0
 11
107.6034523418822
 21
85.01789757441925
 31
0.0
  0
LINE
  8
ITEM_50
 10
111.553452341883
 20
89.4678975744196
 30
0.0
 11
115.653452341883
 21
89.4678975744196
 31
0.0
  0
LINE
  8
ITEM_50
 10
115.653452341883
 20
89.4678975744196
 30
0.0
 11
117.763452341883
 21
85.86789757441924
 31
0.0
  0
LINE
  8
ITEM_50
 10
117.763452341883
 20
85.86789757441924
 30
0.0
 11
115.653452341883
 21
82.26789757441962
 31
0.0
  0
LINE
  8
ITEM_50
 10
115.653452341883
 20
82.26789757441962
 30
0.0
 11
111.553452341883
 21
82.26789757441962
 31
0.0
  0
LINE
  8
ITEM_50
 10
111.553452341883
 20
82.26789757441962
 30
0.0
 11
109.443452341883
 21
85.86789757441924
 31
0.0
  0
LINE
  8
ITEM_50
 10
109.443452341883
 20
85.86789757441924
 30
0.0
 11
111.553452341883
 21
89.4678975744196
 31
0.0
  0
CIRCLE
  8
ITEM_50
 10
113.6034523418826
 20
85.86789757441923
 30
0.0
 40
3.5
  0
LINE
  8
ITEM_25
 10
87.7305606407878
 20
87.43839743317803
 30
0.0
 11
88.30969679071996
 21
87.43839743317805
 31
0.0
  0
ARC
  8
ITEM_50
 10
80.22012871611651
 20
79.01789757441767
 30
0.0
 40
6.000000000000799
 50
25.67928861946402
 51
154.320711380536
  0
LINE
  8
ITEM_50
 10
88.02012871575389
 20
89.21932391452223
 30
0.0
 11
88.55516877753389
 21
89.91789757441921
 31
0.0
  0
LINE
  8
ITEM_50
 10
88.02012871575389
 20
87.81647123431623
 30
0.0
 11
87.48508865397387
 21
87.11789757441927
 31
0.0
  0
LINE
  8
ITEM_50
 10
88.02012871575389
 20
87.81647123431623
 30
0.0
 11
88.55516877753389
 21
87.11789757441925
 31
0.0
  0
LINE
  8
ITEM_50
 10
96.22012871611649
 20
78.36789757441961
 30
0.0
 11
92.02012871611648
 21
78.36789757441961
 31
0.0
  0
LINE
  8
ITEM_50
 10
92.02012871611648
 20
78.36789757441961
 30
0.0
 11
92.02012871611648
 21
89.86789757441961
 31
0.0
  0
LINE
  8
ITEM_50
 10
92.02012871611648
 20
89.86789757441961
 30
0.0
 11
96.22012871611649
 21
89.86789757441961
 31
0.0
  0
LINE
  8
ITEM_50
 10
96.22012871611649
 20
89.86789757441961
 30
0.0
 11
96.22012871611649
 21
87.86789757441961
 31
0.0
  0
LINE
  8
ITEM_50
 10
112.8534523418826
 20
87.16693568009588
 30
0.0
 11
112.1034523418826
 21
85.86789757441923
 31
0.0
  0
LINE
  8
ITEM_50
 10
112.1034523418826
 20
85.86789757441923
 30
0.0
 11
112.8534523418826
 21
84.56885946874257
 31
0.0
  0
LINE
  8
ITEM_50
 10
112.8534523418826
 20
84.56885946874257
 30
0.0
 11
114.3534523418826
 21
84.56885946874257
 31
0.0
  0
LINE
  8
ITEM_50
 10
114.3534523418826
 20
84.56885946874257
 30
0.0
 11
115.1034523418826
 21
85.86789757441923
 31
0.0
  0
LINE
  8
ITEM_50
 10
115.1034523418826
 20
85.86789757441923
 30
0.0
 11
114.3534523418826
 21
87.16693568009588
 31
0.0
  0
LINE
  8
ITEM_50
 10
114.3534523418826
 20
87.16693568009588
 30
0.0
 11
112.8534523418826
 21
87.16693568009588
 31
0.0
  0
LINE
  8
ITEM_50
 10
130.9867759676488
 20
89.86789757441961
 30
0.0
 11
130.9867759676488
 21
87.86789757441961
 31
0.0
  0
LINE
  8
ITEM_50
 10
135.1867759676488
 20
89.86789757441961
 30
0.0
 11
130.9867759676488
 21
89.86789757441961
 31
0.0
  0
LINE
  8
ITEM_50
 10
135.1867759676488
 20
78.36789757441961
 30
0.0
 11
135.1867759676488
 21
89.86789757441961
 31
0.0
  0
LINE
  8
ITEM_50
 10
130.9867759676488
 20
78.36789757441961
 30
0.0
 11
135.1867759676488
 21
78.36789757441961
 31
0.0
  0
LINE
  8
ITEM_50
 10
139.1867759680114
 20
87.81647123431623
 30
0.0
 11
138.6517359062314
 21
87.11789757441925
 31
0.0
  0
LINE
  8
ITEM_50
 10
139.1867759680114
 20
87.81647123431623
 30
0.0
 11
139.7218160297915
 21
87.11789757441927
 31
0.0
  0
LINE
  8
ITEM_50
 10
139.1867759680114
 20
89.21932391452223
 30
0.0
 11
138.6517359062314
 21
89.91789757441921
 31
0.0
  0
ARC
  8
ITEM_50
 10
146.9867759676488
 20
79.01789757441767
 30
0.0
 40
6.000000000000799
 50
25.67928861945816
 51
154.3207113805417
  0
LINE
  8
ITEM_25
 10
139.4763440429775
 20
87.43839743317803
 30
0.0
 11
138.8972078930454
 21
87.43839743317805
 31
0.0
  0
POLYLINE
  8
ITEM_50
 66
     1
 10
0.0
 20
0.0
 30
0.0
  0
VERTEX
  8
ITEM_50
 10
131.4867759676484
 20
84.43591700096365
 30
0.0
  0
VERTEX
  8
ITEM_50
 10
131.4867759676484
 20
87.29987814787526
 30
0.0
  0
SEQEND
  8
ITEM_50
  0
POLYLINE
  8
ITEM_50
 66
     1
 10
0.0
 20
0.0
 30
0.0
  0
VERTEX
  8
ITEM_50
 10
140.9867759676488
 20
83.86789757441925
 30
0.0
  0
VERTEX
  8
ITEM_50
 10
135.1867759676488
 20
83.86789757441925
 30
0.0
  0
SEQEND
  8
ITEM_50
  0
POLYLINE
  8
ITEM_50
 66
     1
 10
0.0
 20
0.0
 30
0.0
  0
VERTEX
  8
ITEM_50
 10
135.1867759676488
 20
87.86789757441925
 30
0.0
  0
VERTEX
  8
ITEM_50
 10
135.7867759676485
 20
87.86789757441925
 30
0.0
  0
SEQEND
  8
ITEM_50
  0
LINE
  8
0
 10
140.9867759676488
 20
89.91789757441918
 30
0.0
 11
140.9867759676488
 21
90.11789757441924
 31
0.0
  0
LINE
  8
ITEM_50
 10
141.532419910331
 20
87.11789757441928
 30
0.0
 11
141.532419910331
 21
89.91789757441917
 31
0.0
  0
LINE
  8
ITEM_50
 10
138.6517359062314
 20
87.11789757441923
 30
0.0
 11
135.7867759676485
 21
87.11789757441924
 31
0.0
  0
LINE
  8
ITEM_50
 10
141.532419910331
 20
87.11789757441928
 30
0.0
 11
139.7218160297915
 21
87.11789757441927
 31
0.0
  0
LINE
  8
ITEM_50
 10
138.6517359062314
 20
89.91789757441921
 30
0.0
 11
135.7867759676485
 21
89.9178975744192
 31
0.0
  0
LINE
  8
ITEM_50
 10
141.532419910331
 20
89.91789757441918
 30
0.0
 11
139.7218160297915
 21
89.91789757441921
 31
0.0
  0
LINE
  8
ITEM_50
 10
139.1867759680114
 20
89.21932391452223
 30
0.0
 11
139.7218160297915
 21
89.9178975744192
 31
0.0
  0
LINE
  8
ITEM_50
 10
135.7867759676485
 20
87.11789757441923
 30
0.0
 11
135.7867759676485
 21
89.9178975744192
 31
0.0
  0
LINE
  8
ITEM_STP
 10
146.9867759676488
 20
80.52940510144944
 30
0.0
 11
146.9867759676488
 21
91.20643474882248
 31
0.0
  0
LINE
  8
0
 10
140.9867759676488
 20
87.11789757441923
 30
0.0
 11
139.8218160269523
 21
87.11789757441923
 31
0.0
  0
LINE
  8
ITEM_50
 10
152.9867759676488
 20
81.61789757441923
 30
0.0
 11
140.9867759676488
 21
81.61789757441923
 31
0.0
  0
LINE
  8
ITEM_50
 10
152.9867759676488
 20
90.11789757441923
 30
0.0
 11
140.9867759676488
 21
90.11789757441923
 31
0.0
  0
LINE
  8
ITEM_50
 10
140.9867759676488
 20
81.61789757441923
 30
0.0
 11
140.9867759676488
 21
87.11789757441928
 31
0.0
  0
LINE
  8
ITEM_50
 10
152.9867759676488
 20
81.61789757441923
 30
0.0
 11
152.9867759676488
 21
90.11789757441924
 31
0.0
  0
ARC
  8
ITEM_50
 10
129.2873489676488
 20
85.86789757441961
 30
0.0
 40
2.624509
 50
310.3549899999999
 51
49.64501
  0
ARC
  8
ITEM_50
 10
131.8867759676488
 20
80.86789757441961
 30
0.0
 40
1.5
 50
126.869898
 51
233.1301019999999
  0
ARC
  8
ITEM_50
 10
129.7967729676488
 20
80.86789757441961
 30
0.0
 40
1.690002
 50
314.7603429999999
 51
45.23965699999999
  0
POLYLINE
  8
ITEM_50
 66
     1
 10
0.0
 20
0.0
 30
0.0
  0
VERTEX
  8
ITEM_50
 10
130.9867759676488
 20
79.66789757441961
 30
0.0
  0
VERTEX
  8
ITEM_50
 10
130.9867759676488
 20
78.36789757441961
 30
0.0
  0
SEQEND
  8
ITEM_50
  0
POLYLINE
  8
ITEM_50
 66
     1
 10
0.0
 20
0.0
 30
0.0
  0
VERTEX
  8
ITEM_50
 10
130.9867759676488
 20
83.86789757441961
 30
0.0
  0
VERTEX
  8
ITEM_50
 10
130.9867759676488
 20
82.06789757441961
 30
0.0
  0
SEQEND
  8
ITEM_50
  0
LINE
  8
ITEM_STP
 10
136.3762239676489
 20
80.86789757441961
 30
0.0
 11
129.6400067627982
 21
80.86789757441961
 31
0.0
  0
LINE
  8
ITEM_25
 10
140.9867759676488
 20
84.29739757441925
 30
0.0
 11
135.1867759676488
 21
84.29739757441925
 31
0.0
  0
LINE
  8
ITEM_25
 10
135.7867759676485
 20
87.43839757441928
 30
0.0
 11
135.1867759676488
 21
87.43839757441928
 31
0.0
  0
LINE
  8
ITEM_STP
 10
129.6604355408945
 20
85.86789757441924
 30
0.0
 11
154.2016671351538
 21
85.86789757441923
 31
0.0
  0
ENDSEC
  0
EOF
